OAG /

Slumber

This is my first time to submit guitar tabs,any error or mistake please commend.
Intro
E----0h2p0--------------------------------------------------------
B---------3p0-----------------------------------------------------
G------------0----------------------------------------------------
D-------------0-2-------------------------------------------------
A---------------2-------------------------------------------------
E-----------------------------------------------------------------
Solo
E----------------------------------------------------------------
B----------------------------------------------------------------
G--------------------------7h9-9/119-7---7/--------------------
D-----7h9-0-00----------7h9--------------------------------------
A-77h9--------7h9-7-77h9-----------------------------------------
E----------------------------------------------------------------
x2